ISO-10303-21;
HEADER;
FILE_DESCRIPTION((''),'2;1');
FILE_NAME('ZSOF065CR','2021-01-20T12:00:05',('ut3'),('PAFFONI SpA'),
'CREO PARAMETRIC BY PTC INC, 2020044','CREO PARAMETRIC BY PTC INC, 2020044','');
FILE_SCHEMA(('CONFIG_CONTROL_DESIGN','SHAPE_APPEARANCE_LAYERS_GROUPS'));
ENDSEC;
DATA;
#17=CARTESIAN_POINT('',(-1.779479354462E-14,0.E0,0.E0));
#18=DIRECTION('',(0.E0,1.E0,0.E0));
#19=DIRECTION('',(1.E0,0.E0,0.E0));
#20=AXIS2_PLACEMENT_3D('',#17,#18,#19);
#22=CARTESIAN_POINT('',(-2.756475616132E-14,0.E0,0.E0));
#23=DIRECTION('',(0.E0,1.E0,0.E0));
#24=DIRECTION('',(-1.E0,0.E0,0.E0));
#25=AXIS2_PLACEMENT_3D('',#22,#23,#24);
#27=DIRECTION('',(-7.071158505574E-1,-7.070977116994E-1,4.887716869596E-10));
#28=VECTOR('',#27,1.414213564965E0);
#29=CARTESIAN_POINT('',(1.049993783422E1,1.000062148818E0,3.349789840470E-9));
#30=LINE('',#29,#28);
#31=CARTESIAN_POINT('',(-3.655565128156E-14,1.000248632144E0,0.E0));
#32=DIRECTION('',(0.E0,1.E0,0.E0));
#33=DIRECTION('',(1.E0,0.E0,0.E0));
#34=AXIS2_PLACEMENT_3D('',#31,#32,#33);
#36=DIRECTION('',(8.880904788695E-6,9.999999999606E-1,-4.785455320164E-10));
#37=VECTOR('',#36,6.999937851458E0);
#38=CARTESIAN_POINT('',(1.049993783422E1,1.000062148818E0,3.349789840470E-9));
#39=LINE('',#38,#37);
#40=DIRECTION('',(-8.880904789710E-6,9.999999999606E-1,4.785458673913E-10));
#41=VECTOR('',#40,6.999937851458E0);
#42=CARTESIAN_POINT('',(-1.049993783422E1,1.000062148818E0,-3.349792188054E-9));
#43=LINE('',#42,#41);
#44=CARTESIAN_POINT('',(-3.655565128156E-14,1.000248632143E0,0.E0));
#45=DIRECTION('',(0.E0,1.E0,0.E0));
#46=DIRECTION('',(-1.E0,0.E0,0.E0));
#47=AXIS2_PLACEMENT_3D('',#44,#45,#46);
#49=DIRECTION('',(7.071158505574E-1,-7.070977116994E-1,-4.887704581700E-10));
#50=VECTOR('',#49,1.414213564965E0);
#51=CARTESIAN_POINT('',(-1.049993783422E1,1.000062148818E0,-3.349792188054E-9));
#52=LINE('',#51,#50);
#53=CARTESIAN_POINT('',(-3.526981781544E-14,8.E0,0.E0));
#54=DIRECTION('',(0.E0,1.E0,0.E0));
#55=DIRECTION('',(1.E0,0.E0,0.E0));
#56=AXIS2_PLACEMENT_3D('',#53,#54,#55);
#58=CARTESIAN_POINT('',(-3.526981781544E-14,8.E0,0.E0));
#59=DIRECTION('',(0.E0,-1.E0,0.E0));
#60=DIRECTION('',(1.E0,0.E0,0.E0));
#61=AXIS2_PLACEMENT_3D('',#58,#59,#60);
#63=CARTESIAN_POINT('',(-3.526981781544E-14,8.E0,0.E0));
#64=DIRECTION('',(0.E0,-1.E0,0.E0));
#65=DIRECTION('',(1.E0,0.E0,0.E0));
#66=AXIS2_PLACEMENT_3D('',#63,#64,#65);
#68=DIRECTION('',(0.E0,1.E0,0.E0));
#69=VECTOR('',#68,2.E0);
#70=CARTESIAN_POINT('',(9.E0,8.E0,0.E0));
#71=LINE('',#70,#69);
#72=DIRECTION('',(0.E0,1.E0,0.E0));
#73=VECTOR('',#72,2.E0);
#74=CARTESIAN_POINT('',(-9.E0,8.E0,0.E0));
#75=LINE('',#74,#73);
#76=CARTESIAN_POINT('',(-3.526981781544E-14,8.E0,0.E0));
#77=DIRECTION('',(0.E0,1.E0,0.E0));
#78=DIRECTION('',(1.E0,0.E0,0.E0));
#79=AXIS2_PLACEMENT_3D('',#76,#77,#78);
#81=CARTESIAN_POINT('',(-3.490242377570E-14,1.E1,0.E0));
#82=DIRECTION('',(0.E0,1.E0,0.E0));
#83=DIRECTION('',(1.E0,0.E0,0.E0));
#84=AXIS2_PLACEMENT_3D('',#81,#82,#83);
#86=CARTESIAN_POINT('',(-3.490242377570E-14,1.E1,0.E0));
#87=DIRECTION('',(0.E0,-1.E0,0.E0));
#88=DIRECTION('',(1.E0,0.E0,0.E0));
#89=AXIS2_PLACEMENT_3D('',#86,#87,#88);
#91=CARTESIAN_POINT('',(0.E0,1.65E2,0.E0));
#92=DIRECTION('',(0.E0,-1.E0,0.E0));
#93=DIRECTION('',(1.E0,0.E0,0.E0));
#94=AXIS2_PLACEMENT_3D('',#91,#92,#93);
#96=CARTESIAN_POINT('',(-3.490242377570E-14,1.E1,0.E0));
#97=DIRECTION('',(0.E0,-1.E0,0.E0));
#98=DIRECTION('',(1.E0,0.E0,0.E0));
#99=AXIS2_PLACEMENT_3D('',#96,#97,#98);
#101=CARTESIAN_POINT('',(0.E0,1.65E2,0.E0));
#102=DIRECTION('',(0.E0,-1.E0,0.E0));
#103=DIRECTION('',(-1.E0,0.E0,0.E0));
#104=AXIS2_PLACEMENT_3D('',#101,#102,#103);
#106=CARTESIAN_POINT('',(0.E0,1.65E2,0.E0));
#107=DIRECTION('',(0.E0,1.E0,0.E0));
#108=DIRECTION('',(-1.E0,0.E0,0.E0));
#109=AXIS2_PLACEMENT_3D('',#106,#107,#108);
#111=DIRECTION('',(0.E0,-1.E0,0.E0));
#112=VECTOR('',#111,1.5E1);
#113=CARTESIAN_POINT('',(-3.E1,1.8E2,0.E0));
#114=LINE('',#113,#112);
#115=DIRECTION('',(0.E0,-1.E0,0.E0));
#116=VECTOR('',#115,1.5E1);
#117=CARTESIAN_POINT('',(3.E1,1.8E2,0.E0));
#118=LINE('',#117,#116);
#119=CARTESIAN_POINT('',(0.E0,1.8E2,0.E0));
#120=DIRECTION('',(0.E0,-1.E0,0.E0));
#121=DIRECTION('',(-1.E0,0.E0,0.E0));
#122=AXIS2_PLACEMENT_3D('',#119,#120,#121);
#124=CARTESIAN_POINT('',(0.E0,1.8E2,0.E0));
#125=DIRECTION('',(0.E0,1.E0,0.E0));
#126=DIRECTION('',(-1.E0,0.E0,0.E0));
#127=AXIS2_PLACEMENT_3D('',#124,#125,#126);
#129=CARTESIAN_POINT('',(0.E0,1.65E2,0.E0));
#130=DIRECTION('',(0.E0,-1.E0,0.E0));
#131=DIRECTION('',(-1.E0,0.E0,0.E0));
#132=AXIS2_PLACEMENT_3D('',#129,#130,#131);
#134=DIRECTION('',(0.E0,1.E0,0.E0));
#135=VECTOR('',#134,1.55E2);
#136=CARTESIAN_POINT('',(-1.2E1,1.E1,0.E0));
#137=LINE('',#136,#135);
#138=CARTESIAN_POINT('',(-3.490242377570E-14,1.E1,0.E0));
#139=DIRECTION('',(0.E0,1.E0,0.E0));
#140=DIRECTION('',(1.E0,0.E0,0.E0));
#141=AXIS2_PLACEMENT_3D('',#138,#139,#140);
#143=DIRECTION('',(0.E0,1.E0,0.E0));
#144=VECTOR('',#143,1.55E2);
#145=CARTESIAN_POINT('',(1.2E1,1.E1,0.E0));
#146=LINE('',#145,#144);
#147=CARTESIAN_POINT('',(9.E0,8.E0,0.E0));
#148=CARTESIAN_POINT('',(9.E0,1.E1,0.E0));
#149=VERTEX_POINT('',#147);
#150=VERTEX_POINT('',#148);
#151=CARTESIAN_POINT('',(-9.E0,8.E0,0.E0));
#152=CARTESIAN_POINT('',(-9.E0,1.E1,0.E0));
#153=VERTEX_POINT('',#151);
#154=VERTEX_POINT('',#152);
#155=CARTESIAN_POINT('',(1.05E1,8.E0,0.E0));
#156=CARTESIAN_POINT('',(-1.05E1,8.E0,0.E0));
#157=VERTEX_POINT('',#155);
#158=VERTEX_POINT('',#156);
#159=CARTESIAN_POINT('',(1.2E1,1.E1,0.E0));
#160=CARTESIAN_POINT('',(-1.2E1,1.E1,0.E0));
#161=VERTEX_POINT('',#159);
#162=VERTEX_POINT('',#160);
#163=CARTESIAN_POINT('',(1.05E1,1.000248632144E0,0.E0));
#164=CARTESIAN_POINT('',(-1.05E1,1.000248632144E0,0.E0));
#165=VERTEX_POINT('',#163);
#166=VERTEX_POINT('',#164);
#167=CARTESIAN_POINT('',(9.499775052435E0,0.E0,0.E0));
#168=CARTESIAN_POINT('',(-9.499775052435E0,0.E0,0.E0));
#169=VERTEX_POINT('',#167);
#170=VERTEX_POINT('',#168);
#171=CARTESIAN_POINT('',(-3.E1,1.8E2,0.E0));
#172=CARTESIAN_POINT('',(-3.E1,1.65E2,0.E0));
#173=VERTEX_POINT('',#171);
#174=VERTEX_POINT('',#172);
#175=CARTESIAN_POINT('',(3.E1,1.8E2,0.E0));
#176=CARTESIAN_POINT('',(3.E1,1.65E2,0.E0));
#177=VERTEX_POINT('',#175);
#178=VERTEX_POINT('',#176);
#179=CARTESIAN_POINT('',(1.2E1,1.65E2,0.E0));
#180=CARTESIAN_POINT('',(-1.2E1,1.65E2,0.E0));
#181=VERTEX_POINT('',#179);
#182=VERTEX_POINT('',#180);
#183=CARTESIAN_POINT('',(-3.673939397442E-14,0.E0,0.E0));
#184=DIRECTION('',(0.E0,-1.E0,0.E0));
#185=DIRECTION('',(-1.E0,0.E0,0.E0));
#186=AXIS2_PLACEMENT_3D('',#183,#184,#185);
#187=PLANE('',#186);
#189=ORIENTED_EDGE('',*,*,#188,.T.);
#191=ORIENTED_EDGE('',*,*,#190,.T.);
#192=EDGE_LOOP('',(#189,#191));
#193=FACE_OUTER_BOUND('',#192,.F.);
#194=ADVANCED_FACE('',(#193),#187,.T.);
#195=FILL_AREA_STYLE_COLOUR('',#9);
#196=FILL_AREA_STYLE('',(#195));
#197=SURFACE_STYLE_FILL_AREA(#196);
#198=SURFACE_SIDE_STYLE('',(#197));
#199=SURFACE_STYLE_USAGE(.BOTH.,#198);
#200=PRESENTATION_STYLE_ASSIGNMENT((#199));
#201=STYLED_ITEM('',(#200),#194);
#202=CARTESIAN_POINT('',(-1.770292209316E-14,5.001248878219E-1,0.E0));
#203=DIRECTION('',(0.E0,1.E0,0.E0));
#204=DIRECTION('',(0.E0,0.E0,-1.E0));
#205=AXIS2_PLACEMENT_3D('',#202,#203,#204);
#206=CONICAL_SURFACE('',#205,9.999888097954E0,4.499932164744E1);
#208=ORIENTED_EDGE('',*,*,#207,.T.);
#210=ORIENTED_EDGE('',*,*,#209,.T.);
#211=ORIENTED_EDGE('',*,*,#188,.F.);
#213=ORIENTED_EDGE('',*,*,#212,.F.);
#214=EDGE_LOOP('',(#208,#210,#211,#213));
#215=FACE_OUTER_BOUND('',#214,.F.);
#216=ADVANCED_FACE('',(#215),#206,.T.);
#217=FILL_AREA_STYLE_COLOUR('',#9);
#218=FILL_AREA_STYLE('',(#217));
#219=SURFACE_STYLE_FILL_AREA(#218);
#220=SURFACE_SIDE_STYLE('',(#219));
#221=SURFACE_STYLE_USAGE(.BOTH.,#220);
#222=PRESENTATION_STYLE_ASSIGNMENT((#221));
#223=STYLED_ITEM('',(#222),#216);
#224=CARTESIAN_POINT('',(0.E0,2.1E2,0.E0));
#225=DIRECTION('',(0.E0,-1.E0,0.E0));
#226=DIRECTION('',(-1.E0,0.E0,0.E0));
#227=AXIS2_PLACEMENT_3D('',#224,#225,#226);
#228=CYLINDRICAL_SURFACE('',#227,1.05E1);
#229=ORIENTED_EDGE('',*,*,#207,.F.);
#231=ORIENTED_EDGE('',*,*,#230,.T.);
#233=ORIENTED_EDGE('',*,*,#232,.T.);
#235=ORIENTED_EDGE('',*,*,#234,.F.);
#236=EDGE_LOOP('',(#229,#231,#233,#235));
#237=FACE_OUTER_BOUND('',#236,.F.);
#238=ADVANCED_FACE('',(#237),#228,.T.);
#239=FILL_AREA_STYLE_COLOUR('',#9);
#240=FILL_AREA_STYLE('',(#239));
#241=SURFACE_STYLE_FILL_AREA(#240);
#242=SURFACE_SIDE_STYLE('',(#241));
#243=SURFACE_STYLE_USAGE(.BOTH.,#242);
#244=PRESENTATION_STYLE_ASSIGNMENT((#243));
#245=STYLED_ITEM('',(#244),#238);
#246=CARTESIAN_POINT('',(0.E0,2.1E2,0.E0));
#247=DIRECTION('',(0.E0,-1.E0,0.E0));
#248=DIRECTION('',(-1.E0,0.E0,0.E0));
#249=AXIS2_PLACEMENT_3D('',#246,#247,#248);
#250=CYLINDRICAL_SURFACE('',#249,1.05E1);
#252=ORIENTED_EDGE('',*,*,#251,.F.);
#253=ORIENTED_EDGE('',*,*,#234,.T.);
#255=ORIENTED_EDGE('',*,*,#254,.F.);
#256=ORIENTED_EDGE('',*,*,#230,.F.);
#257=EDGE_LOOP('',(#252,#253,#255,#256));
#258=FACE_OUTER_BOUND('',#257,.F.);
#259=ADVANCED_FACE('',(#258),#250,.T.);
#260=FILL_AREA_STYLE_COLOUR('',#9);
#261=FILL_AREA_STYLE('',(#260));
#262=SURFACE_STYLE_FILL_AREA(#261);
#263=SURFACE_SIDE_STYLE('',(#262));
#264=SURFACE_STYLE_USAGE(.BOTH.,#263);
#265=PRESENTATION_STYLE_ASSIGNMENT((#264));
#266=STYLED_ITEM('',(#265),#259);
#267=CARTESIAN_POINT('',(-2.747288470986E-14,5.001248878219E-1,0.E0));
#268=DIRECTION('',(0.E0,1.E0,0.E0));
#269=DIRECTION('',(0.E0,0.E0,-1.E0));
#270=AXIS2_PLACEMENT_3D('',#267,#268,#269);
#271=CONICAL_SURFACE('',#270,9.999888097954E0,4.499932164744E1);
#272=ORIENTED_EDGE('',*,*,#251,.T.);
#273=ORIENTED_EDGE('',*,*,#212,.T.);
#274=ORIENTED_EDGE('',*,*,#190,.F.);
#275=ORIENTED_EDGE('',*,*,#209,.F.);
#276=EDGE_LOOP('',(#272,#273,#274,#275));
#277=FACE_OUTER_BOUND('',#276,.F.);
#278=ADVANCED_FACE('',(#277),#271,.T.);
#279=FILL_AREA_STYLE_COLOUR('',#9);
#280=FILL_AREA_STYLE('',(#279));
#281=SURFACE_STYLE_FILL_AREA(#280);
#282=SURFACE_SIDE_STYLE('',(#281));
#283=SURFACE_STYLE_USAGE(.BOTH.,#282);
#284=PRESENTATION_STYLE_ASSIGNMENT((#283));
#285=STYLED_ITEM('',(#284),#278);
#286=CARTESIAN_POINT('',(-3.526981781544E-14,8.E0,0.E0));
#287=DIRECTION('',(0.E0,-1.E0,0.E0));
#288=DIRECTION('',(-1.E0,0.E0,0.E0));
#289=AXIS2_PLACEMENT_3D('',#286,#287,#288);
#290=PLANE('',#289);
#291=ORIENTED_EDGE('',*,*,#232,.F.);
#292=ORIENTED_EDGE('',*,*,#254,.T.);
#293=EDGE_LOOP('',(#291,#292));
#294=FACE_OUTER_BOUND('',#293,.F.);
#296=ORIENTED_EDGE('',*,*,#295,.F.);
#298=ORIENTED_EDGE('',*,*,#297,.T.);
#299=EDGE_LOOP('',(#296,#298));
#300=FACE_BOUND('',#299,.F.);
#301=ADVANCED_FACE('',(#294,#300),#290,.F.);
#302=FILL_AREA_STYLE_COLOUR('',#9);
#303=FILL_AREA_STYLE('',(#302));
#304=SURFACE_STYLE_FILL_AREA(#303);
#305=SURFACE_SIDE_STYLE('',(#304));
#306=SURFACE_STYLE_USAGE(.BOTH.,#305);
#307=PRESENTATION_STYLE_ASSIGNMENT((#306));
#308=STYLED_ITEM('',(#307),#301);
#309=CARTESIAN_POINT('',(0.E0,2.1E2,0.E0));
#310=DIRECTION('',(0.E0,-1.E0,0.E0));
#311=DIRECTION('',(-1.E0,0.E0,0.E0));
#312=AXIS2_PLACEMENT_3D('',#309,#310,#311);
#313=CYLINDRICAL_SURFACE('',#312,9.E0);
#315=ORIENTED_EDGE('',*,*,#314,.F.);
#316=ORIENTED_EDGE('',*,*,#295,.T.);
#318=ORIENTED_EDGE('',*,*,#317,.T.);
#320=ORIENTED_EDGE('',*,*,#319,.F.);
#321=EDGE_LOOP('',(#315,#316,#318,#320));
#322=FACE_OUTER_BOUND('',#321,.F.);
#323=ADVANCED_FACE('',(#322),#313,.T.);
#324=FILL_AREA_STYLE_COLOUR('',#9);
#325=FILL_AREA_STYLE('',(#324));
#326=SURFACE_STYLE_FILL_AREA(#325);
#327=SURFACE_SIDE_STYLE('',(#326));
#328=SURFACE_STYLE_USAGE(.BOTH.,#327);
#329=PRESENTATION_STYLE_ASSIGNMENT((#328));
#330=STYLED_ITEM('',(#329),#323);
#331=CARTESIAN_POINT('',(0.E0,2.1E2,0.E0));
#332=DIRECTION('',(0.E0,-1.E0,0.E0));
#333=DIRECTION('',(-1.E0,0.E0,0.E0));
#334=AXIS2_PLACEMENT_3D('',#331,#332,#333);
#335=CYLINDRICAL_SURFACE('',#334,9.E0);
#336=ORIENTED_EDGE('',*,*,#314,.T.);
#338=ORIENTED_EDGE('',*,*,#337,.T.);
#339=ORIENTED_EDGE('',*,*,#317,.F.);
#340=ORIENTED_EDGE('',*,*,#297,.F.);
#341=EDGE_LOOP('',(#336,#338,#339,#340));
#342=FACE_OUTER_BOUND('',#341,.F.);
#343=ADVANCED_FACE('',(#342),#335,.T.);
#344=FILL_AREA_STYLE_COLOUR('',#9);
#345=FILL_AREA_STYLE('',(#344));
#346=SURFACE_STYLE_FILL_AREA(#345);
#347=SURFACE_SIDE_STYLE('',(#346));
#348=SURFACE_STYLE_USAGE(.BOTH.,#347);
#349=PRESENTATION_STYLE_ASSIGNMENT((#348));
#350=STYLED_ITEM('',(#349),#343);
#351=CARTESIAN_POINT('',(-3.490242377570E-14,1.E1,0.E0));
#352=DIRECTION('',(0.E0,-1.E0,0.E0));
#353=DIRECTION('',(-1.E0,0.E0,0.E0));
#354=AXIS2_PLACEMENT_3D('',#351,#352,#353);
#355=PLANE('',#354);
#357=ORIENTED_EDGE('',*,*,#356,.F.);
#359=ORIENTED_EDGE('',*,*,#358,.T.);
#360=EDGE_LOOP('',(#357,#359));
#361=FACE_OUTER_BOUND('',#360,.F.);
#362=ORIENTED_EDGE('',*,*,#337,.F.);
#363=ORIENTED_EDGE('',*,*,#319,.T.);
#364=EDGE_LOOP('',(#362,#363));
#365=FACE_BOUND('',#364,.F.);
#366=ADVANCED_FACE('',(#361,#365),#355,.T.);
#367=FILL_AREA_STYLE_COLOUR('',#9);
#368=FILL_AREA_STYLE('',(#367));
#369=SURFACE_STYLE_FILL_AREA(#368);
#370=SURFACE_SIDE_STYLE('',(#369));
#371=SURFACE_STYLE_USAGE(.BOTH.,#370);
#372=PRESENTATION_STYLE_ASSIGNMENT((#371));
#373=STYLED_ITEM('',(#372),#366);
#374=CARTESIAN_POINT('',(0.E0,2.1E2,0.E0));
#375=DIRECTION('',(0.E0,-1.E0,0.E0));
#376=DIRECTION('',(-1.E0,0.E0,0.E0));
#377=AXIS2_PLACEMENT_3D('',#374,#375,#376);
#378=CYLINDRICAL_SURFACE('',#377,1.2E1);
#380=ORIENTED_EDGE('',*,*,#379,.F.);
#382=ORIENTED_EDGE('',*,*,#381,.F.);
#383=ORIENTED_EDGE('',*,*,#356,.T.);
#385=ORIENTED_EDGE('',*,*,#384,.T.);
#386=EDGE_LOOP('',(#380,#382,#383,#385));
#387=FACE_OUTER_BOUND('',#386,.F.);
#388=ADVANCED_FACE('',(#387),#378,.T.);
#389=FILL_AREA_STYLE_COLOUR('',#9);
#390=FILL_AREA_STYLE('',(#389));
#391=SURFACE_STYLE_FILL_AREA(#390);
#392=SURFACE_SIDE_STYLE('',(#391));
#393=SURFACE_STYLE_USAGE(.POSITIVE.,#392);
#394=PRESENTATION_STYLE_ASSIGNMENT((#393));
#395=STYLED_ITEM('',(#394),#388);
#396=CARTESIAN_POINT('',(0.E0,1.65E2,0.E0));
#397=DIRECTION('',(0.E0,1.E0,0.E0));
#398=DIRECTION('',(1.E0,0.E0,0.E0));
#399=AXIS2_PLACEMENT_3D('',#396,#397,#398);
#400=PLANE('',#399);
#402=ORIENTED_EDGE('',*,*,#401,.F.);
#404=ORIENTED_EDGE('',*,*,#403,.T.);
#405=EDGE_LOOP('',(#402,#404));
#406=FACE_OUTER_BOUND('',#405,.F.);
#407=ORIENTED_EDGE('',*,*,#379,.T.);
#409=ORIENTED_EDGE('',*,*,#408,.T.);
#410=EDGE_LOOP('',(#407,#409));
#411=FACE_BOUND('',#410,.F.);
#412=ADVANCED_FACE('',(#406,#411),#400,.F.);
#413=FILL_AREA_STYLE_COLOUR('',#10);
#414=FILL_AREA_STYLE('',(#413));
#415=SURFACE_STYLE_FILL_AREA(#414);
#416=SURFACE_SIDE_STYLE('',(#415));
#417=SURFACE_STYLE_USAGE(.BOTH.,#416);
#418=PRESENTATION_STYLE_ASSIGNMENT((#417));
#419=STYLED_ITEM('',(#418),#412);
#420=CARTESIAN_POINT('',(0.E0,1.6425E2,0.E0));
#421=DIRECTION('',(0.E0,1.E0,0.E0));
#422=DIRECTION('',(1.E0,0.E0,0.E0));
#423=AXIS2_PLACEMENT_3D('',#420,#421,#422);
#424=CYLINDRICAL_SURFACE('',#423,3.E1);
#426=ORIENTED_EDGE('',*,*,#425,.T.);
#427=ORIENTED_EDGE('',*,*,#401,.T.);
#429=ORIENTED_EDGE('',*,*,#428,.F.);
#431=ORIENTED_EDGE('',*,*,#430,.F.);
#432=EDGE_LOOP('',(#426,#427,#429,#431));
#433=FACE_OUTER_BOUND('',#432,.F.);
#434=ADVANCED_FACE('',(#433),#424,.T.);
#435=FILL_AREA_STYLE_COLOUR('',#10);
#436=FILL_AREA_STYLE('',(#435));
#437=SURFACE_STYLE_FILL_AREA(#436);
#438=SURFACE_SIDE_STYLE('',(#437));
#439=SURFACE_STYLE_USAGE(.BOTH.,#438);
#440=PRESENTATION_STYLE_ASSIGNMENT((#439));
#441=STYLED_ITEM('',(#440),#434);
#442=CARTESIAN_POINT('',(0.E0,1.6425E2,0.E0));
#443=DIRECTION('',(0.E0,1.E0,0.E0));
#444=DIRECTION('',(1.E0,0.E0,0.E0));
#445=AXIS2_PLACEMENT_3D('',#442,#443,#444);
#446=CYLINDRICAL_SURFACE('',#445,3.E1);
#447=ORIENTED_EDGE('',*,*,#425,.F.);
#449=ORIENTED_EDGE('',*,*,#448,.T.);
#450=ORIENTED_EDGE('',*,*,#428,.T.);
#451=ORIENTED_EDGE('',*,*,#403,.F.);
#452=EDGE_LOOP('',(#447,#449,#450,#451));
#453=FACE_OUTER_BOUND('',#452,.F.);
#454=ADVANCED_FACE('',(#453),#446,.T.);
#455=FILL_AREA_STYLE_COLOUR('',#10);
#456=FILL_AREA_STYLE('',(#455));
#457=SURFACE_STYLE_FILL_AREA(#456);
#458=SURFACE_SIDE_STYLE('',(#457));
#459=SURFACE_STYLE_USAGE(.BOTH.,#458);
#460=PRESENTATION_STYLE_ASSIGNMENT((#459));
#461=STYLED_ITEM('',(#460),#454);
#462=CARTESIAN_POINT('',(0.E0,1.8E2,0.E0));
#463=DIRECTION('',(0.E0,-1.E0,0.E0));
#464=DIRECTION('',(-1.E0,0.E0,0.E0));
#465=AXIS2_PLACEMENT_3D('',#462,#463,#464);
#466=PLANE('',#465);
#467=ORIENTED_EDGE('',*,*,#448,.F.);
#468=ORIENTED_EDGE('',*,*,#430,.T.);
#469=EDGE_LOOP('',(#467,#468));
#470=FACE_OUTER_BOUND('',#469,.F.);
#471=ADVANCED_FACE('',(#470),#466,.F.);
#472=FILL_AREA_STYLE_COLOUR('',#9);
#473=FILL_AREA_STYLE('',(#472));
#474=SURFACE_STYLE_FILL_AREA(#473);
#475=SURFACE_SIDE_STYLE('',(#474));
#476=SURFACE_STYLE_USAGE(.BOTH.,#475);
#477=PRESENTATION_STYLE_ASSIGNMENT((#476));
#478=STYLED_ITEM('',(#477),#471);
#479=CARTESIAN_POINT('',(0.E0,2.1E2,0.E0));
#480=DIRECTION('',(0.E0,-1.E0,0.E0));
#481=DIRECTION('',(-1.E0,0.E0,0.E0));
#482=AXIS2_PLACEMENT_3D('',#479,#480,#481);
#483=CYLINDRICAL_SURFACE('',#482,1.2E1);
#484=ORIENTED_EDGE('',*,*,#408,.F.);
#485=ORIENTED_EDGE('',*,*,#384,.F.);
#486=ORIENTED_EDGE('',*,*,#358,.F.);
#487=ORIENTED_EDGE('',*,*,#381,.T.);
#488=EDGE_LOOP('',(#484,#485,#486,#487));
#489=FACE_OUTER_BOUND('',#488,.F.);
#490=ADVANCED_FACE('',(#489),#483,.T.);
#491=FILL_AREA_STYLE_COLOUR('',#9);
#492=FILL_AREA_STYLE('',(#491));
#493=SURFACE_STYLE_FILL_AREA(#492);
#494=SURFACE_SIDE_STYLE('',(#493));
#495=SURFACE_STYLE_USAGE(.POSITIVE.,#494);
#496=PRESENTATION_STYLE_ASSIGNMENT((#495));
#497=STYLED_ITEM('',(#496),#490);
#498=CLOSED_SHELL('',(#194,#216,#238,#259,#278,#301,#323,#343,#366,#388,#412,
#434,#454,#471,#490));
#499=MANIFOLD_SOLID_BREP('',#498);
#501=DIMENSIONAL_EXPONENTS(0.E0,0.E0,0.E0,0.E0,0.E0,0.E0,0.E0);
#503=PLANE_ANGLE_MEASURE_WITH_UNIT(PLANE_ANGLE_MEASURE(1.745329251994E-2),#502);
#504=(CONVERSION_BASED_UNIT('DEGREE',#503)NAMED_UNIT(*)PLANE_ANGLE_UNIT());
#506=UNCERTAINTY_MEASURE_WITH_UNIT(LENGTH_MEASURE(8.617908545059E-3),#500,
'closure',
'Maximum model space distance between geometric entities at asserted connectivities');
#507=(GEOMETRIC_REPRESENTATION_CONTEXT(3)GLOBAL_UNCERTAINTY_ASSIGNED_CONTEXT((
#506))GLOBAL_UNIT_ASSIGNED_CONTEXT((#500,#504,#505))REPRESENTATION_CONTEXT
('ID1','3'));
#509=MECHANICAL_DESIGN_GEOMETRIC_PRESENTATION_REPRESENTATION('',(#201,#223,#245,
#266,#285,#308,#330,#350,#373,#395,#419,#441,#461,#478,#497),#507);
#510=APPLICATION_CONTEXT(
'CONFIGURATION CONTROLLED 3D DESIGNS OF MECHANICAL PARTS AND ASSEMBLIES');
#511=APPLICATION_PROTOCOL_DEFINITION('international standard',
'config_control_design',1994,#510);
#512=DESIGN_CONTEXT('',#510,'design');
#513=MECHANICAL_CONTEXT('',#510,'mechanical');
#514=PRODUCT('ZSOF065CR','ZSOF065CR','NOT SPECIFIED',(#513));
#515=PRODUCT_DEFINITION_FORMATION_WITH_SPECIFIED_SOURCE('1','LAST_VERSION',#514,
.MADE.);
#519=PRODUCT_CATEGORY('part','');
#520=PRODUCT_RELATED_PRODUCT_CATEGORY('detail','',(#514));
#521=PRODUCT_CATEGORY_RELATIONSHIP('','',#519,#520);
#522=SECURITY_CLASSIFICATION_LEVEL('unclassified');
#523=SECURITY_CLASSIFICATION('','',#522);
#524=CC_DESIGN_SECURITY_CLASSIFICATION(#523,(#515));
#525=APPROVAL_STATUS('approved');
#526=APPROVAL(#525,'');
#527=CC_DESIGN_APPROVAL(#526,(#523,#515,#516));
#528=CALENDAR_DATE(121,20,1);
#529=COORDINATED_UNIVERSAL_TIME_OFFSET(1,0,.AHEAD.);
#530=LOCAL_TIME(12,0,5.E0,#529);
#531=DATE_AND_TIME(#528,#530);
#532=APPROVAL_DATE_TIME(#531,#526);
#533=DATE_TIME_ROLE('creation_date');
#534=CC_DESIGN_DATE_AND_TIME_ASSIGNMENT(#531,#533,(#516));
#535=DATE_TIME_ROLE('classification_date');
#536=CC_DESIGN_DATE_AND_TIME_ASSIGNMENT(#531,#535,(#523));
#537=PERSON('UNSPECIFIED','UNSPECIFIED',$,$,$,$);
#538=ORGANIZATION('UNSPECIFIED','UNSPECIFIED','UNSPECIFIED');
#539=PERSON_AND_ORGANIZATION(#537,#538);
#540=APPROVAL_ROLE('approver');
#541=APPROVAL_PERSON_ORGANIZATION(#539,#526,#540);
#542=PERSON_AND_ORGANIZATION_ROLE('creator');
#543=CC_DESIGN_PERSON_AND_ORGANIZATION_ASSIGNMENT(#539,#542,(#515,#516));
#544=PERSON_AND_ORGANIZATION_ROLE('design_supplier');
#545=CC_DESIGN_PERSON_AND_ORGANIZATION_ASSIGNMENT(#539,#544,(#515));
#546=PERSON_AND_ORGANIZATION_ROLE('classification_officer');
#547=CC_DESIGN_PERSON_AND_ORGANIZATION_ASSIGNMENT(#539,#546,(#523));
#548=PERSON_AND_ORGANIZATION_ROLE('design_owner');
#549=CC_DESIGN_PERSON_AND_ORGANIZATION_ASSIGNMENT(#539,#548,(#514));
#1=COLOUR_RGB('',0.E0,5.1E-1,1.E0);
#2=COLOUR_RGB('',0.E0,7.84E-1,1.E0);
#3=DRAUGHTING_PRE_DEFINED_COLOUR('green');
#4=COLOUR_RGB('',3.9E-2,3.9E-2,1.E0);
#5=COLOUR_RGB('',1.96E-1,1.96E-1,1.96E-1);
#6=COLOUR_RGB('',4.31E-1,7.84E-1,1.E0);
#7=COLOUR_RGB('',5.76E-1,8.04E-1,8.67E-1);
#8=COLOUR_RGB('',6.35294E-1,6.86275E-1,7.4902E-1);
#9=COLOUR_RGB('',6.66667E-1,6.66667E-1,6.66667E-1);
#10=COLOUR_RGB('',6.66667E-1,6.66667E-1,6.66667E-1);
#11=DRAUGHTING_PRE_DEFINED_COLOUR('red');
#12=DRAUGHTING_PRE_DEFINED_COLOUR('magenta');
#13=COLOUR_RGB('',1.E0,3.14E-1,5.88E-1);
#14=COLOUR_RGB('',1.E0,5.88E-1,0.E0);
#15=COLOUR_RGB('',1.E0,9.02E-1,3.92E-1);
#16=DRAUGHTING_PRE_DEFINED_COLOUR('white');
#21=CIRCLE('',#20,9.499775052435E0);
#26=CIRCLE('',#25,9.499775052435E0);
#35=CIRCLE('',#34,1.05E1);
#48=CIRCLE('',#47,1.05E1);
#57=CIRCLE('',#56,1.05E1);
#62=CIRCLE('',#61,1.05E1);
#67=CIRCLE('',#66,9.E0);
#80=CIRCLE('',#79,9.E0);
#85=CIRCLE('',#84,9.E0);
#90=CIRCLE('',#89,9.E0);
#95=CIRCLE('',#94,1.2E1);
#100=CIRCLE('',#99,1.2E1);
#105=CIRCLE('',#104,3.E1);
#110=CIRCLE('',#109,3.E1);
#123=CIRCLE('',#122,3.E1);
#128=CIRCLE('',#127,3.E1);
#133=CIRCLE('',#132,1.2E1);
#142=CIRCLE('',#141,1.2E1);
#188=EDGE_CURVE('',#169,#170,#21,.T.);
#190=EDGE_CURVE('',#170,#169,#26,.T.);
#207=EDGE_CURVE('',#165,#166,#35,.T.);
#209=EDGE_CURVE('',#166,#170,#52,.T.);
#212=EDGE_CURVE('',#165,#169,#30,.T.);
#230=EDGE_CURVE('',#165,#157,#39,.T.);
#232=EDGE_CURVE('',#157,#158,#57,.T.);
#234=EDGE_CURVE('',#166,#158,#43,.T.);
#251=EDGE_CURVE('',#166,#165,#48,.T.);
#254=EDGE_CURVE('',#157,#158,#62,.T.);
#295=EDGE_CURVE('',#149,#153,#67,.T.);
#297=EDGE_CURVE('',#149,#153,#80,.T.);
#314=EDGE_CURVE('',#149,#150,#71,.T.);
#317=EDGE_CURVE('',#153,#154,#75,.T.);
#319=EDGE_CURVE('',#150,#154,#90,.T.);
#337=EDGE_CURVE('',#150,#154,#85,.T.);
#356=EDGE_CURVE('',#161,#162,#100,.T.);
#358=EDGE_CURVE('',#161,#162,#142,.T.);
#379=EDGE_CURVE('',#181,#182,#95,.T.);
#381=EDGE_CURVE('',#161,#181,#146,.T.);
#384=EDGE_CURVE('',#162,#182,#137,.T.);
#401=EDGE_CURVE('',#174,#178,#105,.T.);
#403=EDGE_CURVE('',#174,#178,#110,.T.);
#408=EDGE_CURVE('',#182,#181,#133,.T.);
#425=EDGE_CURVE('',#173,#174,#114,.T.);
#428=EDGE_CURVE('',#177,#178,#118,.T.);
#430=EDGE_CURVE('',#173,#177,#123,.T.);
#448=EDGE_CURVE('',#173,#177,#128,.T.);
#500=(LENGTH_UNIT()NAMED_UNIT(*)SI_UNIT(.MILLI.,.METRE.));
#502=(NAMED_UNIT(*)PLANE_ANGLE_UNIT()SI_UNIT($,.RADIAN.));
#505=(NAMED_UNIT(*)SI_UNIT($,.STERADIAN.)SOLID_ANGLE_UNIT());
#508=ADVANCED_BREP_SHAPE_REPRESENTATION('',(#499),#507);
#516=PRODUCT_DEFINITION('design','',#515,#512);
#517=PRODUCT_DEFINITION_SHAPE('','SHAPE FOR ZSOF065CR.',#516);
#518=SHAPE_DEFINITION_REPRESENTATION(#517,#508);
ENDSEC;
END-ISO-10303-21;
