ISO-10303-21;
HEADER;
FILE_DESCRIPTION((''),'2;1');
FILE_NAME('ZSOF035CR','2021-01-20T11:32:16',('ut3'),('PAFFONI SpA'),
'CREO PARAMETRIC BY PTC INC, 2020044','CREO PARAMETRIC BY PTC INC, 2020044','');
FILE_SCHEMA(('CONFIG_CONTROL_DESIGN','SHAPE_APPEARANCE_LAYERS_GROUPS'));
ENDSEC;
DATA;
#18=CARTESIAN_POINT('',(0.E0,2.842170943040E-14,2.525E2));
#19=DIRECTION('',(0.E0,0.E0,1.E0));
#20=DIRECTION('',(0.E0,-1.E0,0.E0));
#21=AXIS2_PLACEMENT_3D('',#18,#19,#20);
#23=CARTESIAN_POINT('',(0.E0,-3.95E1,2.525E2));
#24=DIRECTION('',(1.E0,0.E0,0.E0));
#25=DIRECTION('',(0.E0,1.E0,0.E0));
#26=AXIS2_PLACEMENT_3D('',#23,#24,#25);
#28=CARTESIAN_POINT('',(0.E0,0.E0,1.3E1));
#29=DIRECTION('',(0.E0,0.E0,1.E0));
#30=DIRECTION('',(0.E0,-1.E0,0.E0));
#31=AXIS2_PLACEMENT_3D('',#28,#29,#30);
#33=DIRECTION('',(0.E0,0.E0,1.E0));
#34=VECTOR('',#33,2.395E2);
#35=CARTESIAN_POINT('',(0.E0,-1.2E1,1.3E1));
#36=LINE('',#35,#34);
#37=CARTESIAN_POINT('',(0.E0,0.E0,1.3E1));
#38=DIRECTION('',(0.E0,0.E0,1.E0));
#39=DIRECTION('',(-1.E0,0.E0,0.E0));
#40=AXIS2_PLACEMENT_3D('',#37,#38,#39);
#42=CARTESIAN_POINT('',(0.E0,0.E0,1.3E1));
#43=DIRECTION('',(0.E0,0.E0,-1.E0));
#44=DIRECTION('',(-1.E0,0.E0,0.E0));
#45=AXIS2_PLACEMENT_3D('',#42,#43,#44);
#47=DIRECTION('',(0.E0,0.E0,1.E0));
#48=VECTOR('',#47,1.5E1);
#49=CARTESIAN_POINT('',(-3.E1,0.E0,-2.E0));
#50=LINE('',#49,#48);
#51=DIRECTION('',(0.E0,0.E0,1.E0));
#52=VECTOR('',#51,1.5E1);
#53=CARTESIAN_POINT('',(3.E1,0.E0,-2.E0));
#54=LINE('',#53,#52);
#55=CARTESIAN_POINT('',(0.E0,0.E0,-2.E0));
#56=DIRECTION('',(0.E0,0.E0,1.E0));
#57=DIRECTION('',(-1.E0,0.E0,0.E0));
#58=AXIS2_PLACEMENT_3D('',#55,#56,#57);
#60=CARTESIAN_POINT('',(0.E0,0.E0,-2.E0));
#61=DIRECTION('',(0.E0,0.E0,-1.E0));
#62=DIRECTION('',(-1.E0,0.E0,0.E0));
#63=AXIS2_PLACEMENT_3D('',#60,#61,#62);
#65=CARTESIAN_POINT('',(0.E0,0.E0,1.3E1));
#66=DIRECTION('',(0.E0,0.E0,1.E0));
#67=DIRECTION('',(0.E0,1.E0,0.E0));
#68=AXIS2_PLACEMENT_3D('',#65,#66,#67);
#70=DIRECTION('',(0.E0,0.E0,1.E0));
#71=VECTOR('',#70,2.395E2);
#72=CARTESIAN_POINT('',(0.E0,1.2E1,1.3E1));
#73=LINE('',#72,#71);
#74=CARTESIAN_POINT('',(0.E0,2.842170943040E-14,2.525E2));
#75=DIRECTION('',(0.E0,0.E0,1.E0));
#76=DIRECTION('',(0.E0,1.E0,0.E0));
#77=AXIS2_PLACEMENT_3D('',#74,#75,#76);
#79=CARTESIAN_POINT('',(0.E0,-3.95E1,2.525E2));
#80=DIRECTION('',(1.E0,0.E0,0.E0));
#81=DIRECTION('',(0.E0,1.E0,0.E0));
#82=AXIS2_PLACEMENT_3D('',#79,#80,#81);
#84=CARTESIAN_POINT('',(0.E0,-5.5E1,2.92E2));
#85=DIRECTION('',(0.E0,-1.E0,0.E0));
#86=DIRECTION('',(0.E0,0.E0,1.E0));
#87=AXIS2_PLACEMENT_3D('',#84,#85,#86);
#89=DIRECTION('',(0.E0,1.E0,0.E0));
#90=VECTOR('',#89,3.E0);
#91=CARTESIAN_POINT('',(-1.2E1,-5.8E1,2.92E2));
#92=LINE('',#91,#90);
#93=CARTESIAN_POINT('',(0.E0,-5.8E1,2.92E2));
#94=DIRECTION('',(0.E0,1.E0,0.E0));
#95=DIRECTION('',(1.E0,0.E0,0.E0));
#96=AXIS2_PLACEMENT_3D('',#93,#94,#95);
#98=DIRECTION('',(0.E0,1.E0,0.E0));
#99=VECTOR('',#98,3.E0);
#100=CARTESIAN_POINT('',(1.2E1,-5.8E1,2.92E2));
#101=LINE('',#100,#99);
#102=CARTESIAN_POINT('',(0.E0,-3.95E1,2.92E2));
#103=DIRECTION('',(0.E0,-1.E0,0.E0));
#104=DIRECTION('',(0.E0,0.E0,1.E0));
#105=AXIS2_PLACEMENT_3D('',#102,#103,#104);
#107=DIRECTION('',(0.E0,-1.E0,0.E0));
#108=VECTOR('',#107,1.55E1);
#109=CARTESIAN_POINT('',(0.E0,-3.95E1,3.04E2));
#110=LINE('',#109,#108);
#111=CARTESIAN_POINT('',(0.E0,-5.5E1,2.92E2));
#112=DIRECTION('',(0.E0,-1.E0,0.E0));
#113=DIRECTION('',(0.E0,0.E0,-1.E0));
#114=AXIS2_PLACEMENT_3D('',#111,#112,#113);
#116=CARTESIAN_POINT('',(0.E0,-5.8E1,2.92E2));
#117=DIRECTION('',(0.E0,-1.E0,0.E0));
#118=DIRECTION('',(1.E0,0.E0,0.E0));
#119=AXIS2_PLACEMENT_3D('',#116,#117,#118);
#121=CARTESIAN_POINT('',(0.E0,-3.95E1,2.92E2));
#122=DIRECTION('',(0.E0,-1.E0,0.E0));
#123=DIRECTION('',(0.E0,0.E0,-1.E0));
#124=AXIS2_PLACEMENT_3D('',#121,#122,#123);
#126=DIRECTION('',(0.E0,-1.E0,0.E0));
#127=VECTOR('',#126,1.55E1);
#128=CARTESIAN_POINT('',(0.E0,-3.95E1,2.8E2));
#129=LINE('',#128,#127);
#130=CARTESIAN_POINT('',(0.E0,-5.8E1,2.92E2));
#131=DIRECTION('',(0.E0,1.E0,0.E0));
#132=DIRECTION('',(1.E0,0.E0,0.E0));
#133=AXIS2_PLACEMENT_3D('',#130,#131,#132);
#135=CARTESIAN_POINT('',(0.E0,-5.8E1,2.92E2));
#136=DIRECTION('',(0.E0,-1.E0,0.E0));
#137=DIRECTION('',(1.E0,0.E0,0.E0));
#138=AXIS2_PLACEMENT_3D('',#135,#136,#137);
#140=DIRECTION('',(0.E0,1.E0,0.E0));
#141=VECTOR('',#140,2.E0);
#142=CARTESIAN_POINT('',(9.25E0,-6.E1,2.92E2));
#143=LINE('',#142,#141);
#144=DIRECTION('',(0.E0,1.E0,0.E0));
#145=VECTOR('',#144,2.E0);
#146=CARTESIAN_POINT('',(-9.25E0,-6.E1,2.92E2));
#147=LINE('',#146,#145);
#148=CARTESIAN_POINT('',(0.E0,-6.E1,2.92E2));
#149=DIRECTION('',(0.E0,1.E0,0.E0));
#150=DIRECTION('',(1.E0,0.E0,0.E0));
#151=AXIS2_PLACEMENT_3D('',#148,#149,#150);
#153=CARTESIAN_POINT('',(0.E0,-6.E1,2.92E2));
#154=DIRECTION('',(0.E0,-1.E0,0.E0));
#155=DIRECTION('',(1.E0,0.E0,0.E0));
#156=AXIS2_PLACEMENT_3D('',#153,#154,#155);
#158=CARTESIAN_POINT('',(0.E0,-6.E1,2.92E2));
#159=DIRECTION('',(0.E0,1.E0,0.E0));
#160=DIRECTION('',(1.E0,0.E0,0.E0));
#161=AXIS2_PLACEMENT_3D('',#158,#159,#160);
#163=CARTESIAN_POINT('',(0.E0,-6.E1,2.92E2));
#164=DIRECTION('',(0.E0,-1.E0,0.E0));
#165=DIRECTION('',(1.E0,0.E0,0.E0));
#166=AXIS2_PLACEMENT_3D('',#163,#164,#165);
#168=CARTESIAN_POINT('',(0.E0,-6.742264973081E1,2.92E2));
#169=DIRECTION('',(0.E0,1.E0,0.E0));
#170=DIRECTION('',(1.E0,0.E0,0.E0));
#171=AXIS2_PLACEMENT_3D('',#168,#169,#170);
#173=DIRECTION('',(2.068645170743E-12,1.E0,1.363142398491E-11));
#174=VECTOR('',#173,7.422649730819E0);
#175=CARTESIAN_POINT('',(1.049999999998E1,-6.742264973082E1,2.919999999999E2));
#176=LINE('',#175,#174);
#177=DIRECTION('',(-2.068645170743E-12,1.E0,-1.363142398491E-11));
#178=VECTOR('',#177,7.422649730819E0);
#179=CARTESIAN_POINT('',(-1.049999999998E1,-6.742264973082E1,2.920000000001E2));
#180=LINE('',#179,#178);
#181=DIRECTION('',(-8.660254037844E-1,-5.E-1,-1.811584687582E-11));
#182=VECTOR('',#181,1.154700538383E0);
#183=CARTESIAN_POINT('',(1.049999999998E1,-6.742264973082E1,2.919999999999E2));
#184=LINE('',#183,#182);
#185=DIRECTION('',(8.660254037844E-1,-5.E-1,1.806661903105E-11));
#186=VECTOR('',#185,1.154700538383E0);
#187=CARTESIAN_POINT('',(-1.049999999998E1,-6.742264973082E1,2.920000000001E2));
#188=LINE('',#187,#186);
#189=CARTESIAN_POINT('',(0.E0,-6.742264973081E1,2.92E2));
#190=DIRECTION('',(0.E0,1.E0,0.E0));
#191=DIRECTION('',(-1.E0,0.E0,0.E0));
#192=AXIS2_PLACEMENT_3D('',#189,#190,#191);
#194=CARTESIAN_POINT('',(0.E0,-6.8E1,2.92E2));
#195=DIRECTION('',(0.E0,1.E0,0.E0));
#196=DIRECTION('',(1.E0,0.E0,0.E0));
#197=AXIS2_PLACEMENT_3D('',#194,#195,#196);
#199=CARTESIAN_POINT('',(0.E0,-6.8E1,2.92E2));
#200=DIRECTION('',(0.E0,1.E0,0.E0));
#201=DIRECTION('',(-1.E0,0.E0,0.E0));
#202=AXIS2_PLACEMENT_3D('',#199,#200,#201);
#204=CARTESIAN_POINT('',(0.E0,-1.2E1,2.525E2));
#205=CARTESIAN_POINT('',(0.E0,1.2E1,2.525E2));
#206=VERTEX_POINT('',#204);
#207=VERTEX_POINT('',#205);
#208=CARTESIAN_POINT('',(0.E0,-3.95E1,2.8E2));
#209=CARTESIAN_POINT('',(0.E0,-3.95E1,3.04E2));
#210=VERTEX_POINT('',#208);
#211=VERTEX_POINT('',#209);
#212=CARTESIAN_POINT('',(9.25E0,-6.E1,2.92E2));
#213=CARTESIAN_POINT('',(9.25E0,-5.8E1,2.92E2));
#214=VERTEX_POINT('',#212);
#215=VERTEX_POINT('',#213);
#216=CARTESIAN_POINT('',(-9.25E0,-6.E1,2.92E2));
#217=CARTESIAN_POINT('',(-9.25E0,-5.8E1,2.92E2));
#218=VERTEX_POINT('',#216);
#219=VERTEX_POINT('',#217);
#220=CARTESIAN_POINT('',(1.05E1,-6.E1,2.92E2));
#221=CARTESIAN_POINT('',(-1.05E1,-6.E1,2.92E2));
#222=VERTEX_POINT('',#220);
#223=VERTEX_POINT('',#221);
#224=CARTESIAN_POINT('',(1.2E1,-5.8E1,2.92E2));
#225=CARTESIAN_POINT('',(-1.2E1,-5.8E1,2.92E2));
#226=VERTEX_POINT('',#224);
#227=VERTEX_POINT('',#225);
#228=CARTESIAN_POINT('',(1.05E1,-6.742264973081E1,2.92E2));
#229=CARTESIAN_POINT('',(-1.05E1,-6.742264973081E1,2.92E2));
#230=VERTEX_POINT('',#228);
#231=VERTEX_POINT('',#229);
#232=CARTESIAN_POINT('',(9.5E0,-6.8E1,2.92E2));
#233=CARTESIAN_POINT('',(-9.5E0,-6.8E1,2.92E2));
#234=VERTEX_POINT('',#232);
#235=VERTEX_POINT('',#233);
#236=CARTESIAN_POINT('',(0.E0,-5.5E1,3.04E2));
#237=CARTESIAN_POINT('',(-1.2E1,-5.5E1,2.92E2));
#238=VERTEX_POINT('',#236);
#239=VERTEX_POINT('',#237);
#240=CARTESIAN_POINT('',(0.E0,-5.5E1,2.8E2));
#241=CARTESIAN_POINT('',(1.2E1,-5.5E1,2.92E2));
#242=VERTEX_POINT('',#240);
#243=VERTEX_POINT('',#241);
#244=CARTESIAN_POINT('',(-3.E1,0.E0,-2.E0));
#245=CARTESIAN_POINT('',(-3.E1,0.E0,1.3E1));
#246=VERTEX_POINT('',#244);
#247=VERTEX_POINT('',#245);
#248=CARTESIAN_POINT('',(3.E1,0.E0,-2.E0));
#249=CARTESIAN_POINT('',(3.E1,0.E0,1.3E1));
#250=VERTEX_POINT('',#248);
#251=VERTEX_POINT('',#249);
#252=CARTESIAN_POINT('',(0.E0,-1.2E1,1.3E1));
#253=CARTESIAN_POINT('',(0.E0,1.2E1,1.3E1));
#254=VERTEX_POINT('',#252);
#255=VERTEX_POINT('',#253);
#256=CARTESIAN_POINT('',(0.E0,-3.95E1,2.525E2));
#257=DIRECTION('',(1.E0,0.E0,0.E0));
#258=DIRECTION('',(0.E0,-1.E0,0.E0));
#259=AXIS2_PLACEMENT_3D('',#256,#257,#258);
#260=TOROIDAL_SURFACE('',#259,3.95E1,1.2E1);
#262=ORIENTED_EDGE('',*,*,#261,.F.);
#264=ORIENTED_EDGE('',*,*,#263,.T.);
#266=ORIENTED_EDGE('',*,*,#265,.T.);
#268=ORIENTED_EDGE('',*,*,#267,.F.);
#269=EDGE_LOOP('',(#262,#264,#266,#268));
#270=FACE_OUTER_BOUND('',#269,.F.);
#271=ADVANCED_FACE('',(#270),#260,.T.);
#272=FILL_AREA_STYLE_COLOUR('',#9);
#273=FILL_AREA_STYLE('',(#272));
#274=SURFACE_STYLE_FILL_AREA(#273);
#275=SURFACE_SIDE_STYLE('',(#274));
#276=SURFACE_STYLE_USAGE(.BOTH.,#275);
#277=PRESENTATION_STYLE_ASSIGNMENT((#276));
#278=STYLED_ITEM('',(#277),#271);
#279=CARTESIAN_POINT('',(0.E0,0.E0,0.E0));
#280=DIRECTION('',(0.E0,0.E0,1.E0));
#281=DIRECTION('',(0.E0,-1.E0,0.E0));
#282=AXIS2_PLACEMENT_3D('',#279,#280,#281);
#283=CYLINDRICAL_SURFACE('',#282,1.2E1);
#285=ORIENTED_EDGE('',*,*,#284,.F.);
#287=ORIENTED_EDGE('',*,*,#286,.T.);
#288=ORIENTED_EDGE('',*,*,#261,.T.);
#290=ORIENTED_EDGE('',*,*,#289,.F.);
#291=EDGE_LOOP('',(#285,#287,#288,#290));
#292=FACE_OUTER_BOUND('',#291,.F.);
#293=ADVANCED_FACE('',(#292),#283,.T.);
#294=FILL_AREA_STYLE_COLOUR('',#9);
#295=FILL_AREA_STYLE('',(#294));
#296=SURFACE_STYLE_FILL_AREA(#295);
#297=SURFACE_SIDE_STYLE('',(#296));
#298=SURFACE_STYLE_USAGE(.POSITIVE.,#297);
#299=PRESENTATION_STYLE_ASSIGNMENT((#298));
#300=STYLED_ITEM('',(#299),#293);
#301=CARTESIAN_POINT('',(0.E0,0.E0,1.3E1));
#302=DIRECTION('',(0.E0,0.E0,-1.E0));
#303=DIRECTION('',(1.E0,0.E0,0.E0));
#304=AXIS2_PLACEMENT_3D('',#301,#302,#303);
#305=PLANE('',#304);
#307=ORIENTED_EDGE('',*,*,#306,.F.);
#309=ORIENTED_EDGE('',*,*,#308,.T.);
#310=EDGE_LOOP('',(#307,#309));
#311=FACE_OUTER_BOUND('',#310,.F.);
#312=ORIENTED_EDGE('',*,*,#284,.T.);
#314=ORIENTED_EDGE('',*,*,#313,.T.);
#315=EDGE_LOOP('',(#312,#314));
#316=FACE_BOUND('',#315,.F.);
#317=ADVANCED_FACE('',(#311,#316),#305,.F.);
#318=FILL_AREA_STYLE_COLOUR('',#11);
#319=FILL_AREA_STYLE('',(#318));
#320=SURFACE_STYLE_FILL_AREA(#319);
#321=SURFACE_SIDE_STYLE('',(#320));
#322=SURFACE_STYLE_USAGE(.BOTH.,#321);
#323=PRESENTATION_STYLE_ASSIGNMENT((#322));
#324=STYLED_ITEM('',(#323),#317);
#325=CARTESIAN_POINT('',(0.E0,0.E0,1.375E1));
#326=DIRECTION('',(0.E0,0.E0,-1.E0));
#327=DIRECTION('',(1.E0,0.E0,0.E0));
#328=AXIS2_PLACEMENT_3D('',#325,#326,#327);
#329=CYLINDRICAL_SURFACE('',#328,3.E1);
#331=ORIENTED_EDGE('',*,*,#330,.T.);
#332=ORIENTED_EDGE('',*,*,#306,.T.);
#334=ORIENTED_EDGE('',*,*,#333,.F.);
#336=ORIENTED_EDGE('',*,*,#335,.F.);
#337=EDGE_LOOP('',(#331,#332,#334,#336));
#338=FACE_OUTER_BOUND('',#337,.F.);
#339=ADVANCED_FACE('',(#338),#329,.T.);
#340=FILL_AREA_STYLE_COLOUR('',#11);
#341=FILL_AREA_STYLE('',(#340));
#342=SURFACE_STYLE_FILL_AREA(#341);
#343=SURFACE_SIDE_STYLE('',(#342));
#344=SURFACE_STYLE_USAGE(.BOTH.,#343);
#345=PRESENTATION_STYLE_ASSIGNMENT((#344));
#346=STYLED_ITEM('',(#345),#339);
#347=CARTESIAN_POINT('',(0.E0,0.E0,1.375E1));
#348=DIRECTION('',(0.E0,0.E0,-1.E0));
#349=DIRECTION('',(1.E0,0.E0,0.E0));
#350=AXIS2_PLACEMENT_3D('',#347,#348,#349);
#351=CYLINDRICAL_SURFACE('',#350,3.E1);
#352=ORIENTED_EDGE('',*,*,#330,.F.);
#354=ORIENTED_EDGE('',*,*,#353,.T.);
#355=ORIENTED_EDGE('',*,*,#333,.T.);
#356=ORIENTED_EDGE('',*,*,#308,.F.);
#357=EDGE_LOOP('',(#352,#354,#355,#356));
#358=FACE_OUTER_BOUND('',#357,.F.);
#359=ADVANCED_FACE('',(#358),#351,.T.);
#360=FILL_AREA_STYLE_COLOUR('',#11);
#361=FILL_AREA_STYLE('',(#360));
#362=SURFACE_STYLE_FILL_AREA(#361);
#363=SURFACE_SIDE_STYLE('',(#362));
#364=SURFACE_STYLE_USAGE(.BOTH.,#363);
#365=PRESENTATION_STYLE_ASSIGNMENT((#364));
#366=STYLED_ITEM('',(#365),#359);
#367=CARTESIAN_POINT('',(0.E0,0.E0,-2.E0));
#368=DIRECTION('',(0.E0,0.E0,-1.E0));
#369=DIRECTION('',(1.E0,0.E0,0.E0));
#370=AXIS2_PLACEMENT_3D('',#367,#368,#369);
#371=PLANE('',#370);
#372=ORIENTED_EDGE('',*,*,#353,.F.);
#373=ORIENTED_EDGE('',*,*,#335,.T.);
#374=EDGE_LOOP('',(#372,#373));
#375=FACE_OUTER_BOUND('',#374,.F.);
#376=ADVANCED_FACE('',(#375),#371,.T.);
#377=FILL_AREA_STYLE_COLOUR('',#16);
#378=FILL_AREA_STYLE('',(#377));
#379=SURFACE_STYLE_FILL_AREA(#378);
#380=SURFACE_SIDE_STYLE('',(#379));
#381=SURFACE_STYLE_USAGE(.BOTH.,#380);
#382=PRESENTATION_STYLE_ASSIGNMENT((#381));
#383=STYLED_ITEM('',(#382),#376);
#384=CARTESIAN_POINT('',(0.E0,0.E0,0.E0));
#385=DIRECTION('',(0.E0,0.E0,1.E0));
#386=DIRECTION('',(0.E0,-1.E0,0.E0));
#387=AXIS2_PLACEMENT_3D('',#384,#385,#386);
#388=CYLINDRICAL_SURFACE('',#387,1.2E1);
#389=ORIENTED_EDGE('',*,*,#313,.F.);
#390=ORIENTED_EDGE('',*,*,#289,.T.);
#392=ORIENTED_EDGE('',*,*,#391,.T.);
#393=ORIENTED_EDGE('',*,*,#286,.F.);
#394=EDGE_LOOP('',(#389,#390,#392,#393));
#395=FACE_OUTER_BOUND('',#394,.F.);
#396=ADVANCED_FACE('',(#395),#388,.T.);
#397=FILL_AREA_STYLE_COLOUR('',#9);
#398=FILL_AREA_STYLE('',(#397));
#399=SURFACE_STYLE_FILL_AREA(#398);
#400=SURFACE_SIDE_STYLE('',(#399));
#401=SURFACE_STYLE_USAGE(.POSITIVE.,#400);
#402=PRESENTATION_STYLE_ASSIGNMENT((#401));
#403=STYLED_ITEM('',(#402),#396);
#404=CARTESIAN_POINT('',(0.E0,-3.95E1,2.525E2));
#405=DIRECTION('',(1.E0,0.E0,0.E0));
#406=DIRECTION('',(0.E0,-1.E0,0.E0));
#407=AXIS2_PLACEMENT_3D('',#404,#405,#406);
#408=TOROIDAL_SURFACE('',#407,3.95E1,1.2E1);
#409=ORIENTED_EDGE('',*,*,#391,.F.);
#410=ORIENTED_EDGE('',*,*,#267,.T.);
#412=ORIENTED_EDGE('',*,*,#411,.T.);
#413=ORIENTED_EDGE('',*,*,#263,.F.);
#414=EDGE_LOOP('',(#409,#410,#412,#413));
#415=FACE_OUTER_BOUND('',#414,.F.);
#416=ADVANCED_FACE('',(#415),#408,.T.);
#417=FILL_AREA_STYLE_COLOUR('',#9);
#418=FILL_AREA_STYLE('',(#417));
#419=SURFACE_STYLE_FILL_AREA(#418);
#420=SURFACE_SIDE_STYLE('',(#419));
#421=SURFACE_STYLE_USAGE(.BOTH.,#420);
#422=PRESENTATION_STYLE_ASSIGNMENT((#421));
#423=STYLED_ITEM('',(#422),#416);
#424=CARTESIAN_POINT('',(0.E0,-3.95E1,2.92E2));
#425=DIRECTION('',(0.E0,-1.E0,0.E0));
#426=DIRECTION('',(0.E0,0.E0,-1.E0));
#427=AXIS2_PLACEMENT_3D('',#424,#425,#426);
#428=CYLINDRICAL_SURFACE('',#427,1.2E1);
#430=ORIENTED_EDGE('',*,*,#429,.T.);
#432=ORIENTED_EDGE('',*,*,#431,.F.);
#434=ORIENTED_EDGE('',*,*,#433,.F.);
#436=ORIENTED_EDGE('',*,*,#435,.T.);
#438=ORIENTED_EDGE('',*,*,#437,.F.);
#440=ORIENTED_EDGE('',*,*,#439,.F.);
#441=ORIENTED_EDGE('',*,*,#411,.F.);
#443=ORIENTED_EDGE('',*,*,#442,.T.);
#444=EDGE_LOOP('',(#430,#432,#434,#436,#438,#440,#441,#443));
#445=FACE_OUTER_BOUND('',#444,.F.);
#446=ADVANCED_FACE('',(#445),#428,.T.);
#447=FILL_AREA_STYLE_COLOUR('',#9);
#448=FILL_AREA_STYLE('',(#447));
#449=SURFACE_STYLE_FILL_AREA(#448);
#450=SURFACE_SIDE_STYLE('',(#449));
#451=SURFACE_STYLE_USAGE(.BOTH.,#450);
#452=PRESENTATION_STYLE_ASSIGNMENT((#451));
#453=STYLED_ITEM('',(#452),#446);
#454=CARTESIAN_POINT('',(0.E0,-3.95E1,2.92E2));
#455=DIRECTION('',(0.E0,-1.E0,0.E0));
#456=DIRECTION('',(0.E0,0.E0,-1.E0));
#457=AXIS2_PLACEMENT_3D('',#454,#455,#456);
#458=CYLINDRICAL_SURFACE('',#457,1.2E1);
#459=ORIENTED_EDGE('',*,*,#437,.T.);
#460=ORIENTED_EDGE('',*,*,#435,.F.);
#462=ORIENTED_EDGE('',*,*,#461,.T.);
#463=ORIENTED_EDGE('',*,*,#431,.T.);
#464=ORIENTED_EDGE('',*,*,#429,.F.);
#465=ORIENTED_EDGE('',*,*,#442,.F.);
#466=ORIENTED_EDGE('',*,*,#265,.F.);
#467=ORIENTED_EDGE('',*,*,#439,.T.);
#468=EDGE_LOOP('',(#459,#460,#462,#463,#464,#465,#466,#467));
#469=FACE_OUTER_BOUND('',#468,.F.);
#470=ADVANCED_FACE('',(#469),#458,.T.);
#471=FILL_AREA_STYLE_COLOUR('',#9);
#472=FILL_AREA_STYLE('',(#471));
#473=SURFACE_STYLE_FILL_AREA(#472);
#474=SURFACE_SIDE_STYLE('',(#473));
#475=SURFACE_STYLE_USAGE(.BOTH.,#474);
#476=PRESENTATION_STYLE_ASSIGNMENT((#475));
#477=STYLED_ITEM('',(#476),#470);
#478=CARTESIAN_POINT('',(0.E0,-5.8E1,2.92E2));
#479=DIRECTION('',(0.E0,-1.E0,0.E0));
#480=DIRECTION('',(-1.E0,0.E0,0.E0));
#481=AXIS2_PLACEMENT_3D('',#478,#479,#480);
#482=PLANE('',#481);
#483=ORIENTED_EDGE('',*,*,#461,.F.);
#484=ORIENTED_EDGE('',*,*,#433,.T.);
#485=EDGE_LOOP('',(#483,#484));
#486=FACE_OUTER_BOUND('',#485,.F.);
#488=ORIENTED_EDGE('',*,*,#487,.F.);
#490=ORIENTED_EDGE('',*,*,#489,.T.);
#491=EDGE_LOOP('',(#488,#490));
#492=FACE_BOUND('',#491,.F.);
#493=ADVANCED_FACE('',(#486,#492),#482,.T.);
#494=FILL_AREA_STYLE_COLOUR('',#10);
#495=FILL_AREA_STYLE('',(#494));
#496=SURFACE_STYLE_FILL_AREA(#495);
#497=SURFACE_SIDE_STYLE('',(#496));
#498=SURFACE_STYLE_USAGE(.BOTH.,#497);
#499=PRESENTATION_STYLE_ASSIGNMENT((#498));
#500=STYLED_ITEM('',(#499),#493);
#501=CARTESIAN_POINT('',(0.E0,-4.595E1,2.92E2));
#502=DIRECTION('',(0.E0,-1.E0,0.E0));
#503=DIRECTION('',(-1.E0,0.E0,0.E0));
#504=AXIS2_PLACEMENT_3D('',#501,#502,#503);
#505=CYLINDRICAL_SURFACE('',#504,9.25E0);
#507=ORIENTED_EDGE('',*,*,#506,.T.);
#508=ORIENTED_EDGE('',*,*,#487,.T.);
#510=ORIENTED_EDGE('',*,*,#509,.F.);
#512=ORIENTED_EDGE('',*,*,#511,.F.);
#513=EDGE_LOOP('',(#507,#508,#510,#512));
#514=FACE_OUTER_BOUND('',#513,.F.);
#515=ADVANCED_FACE('',(#514),#505,.T.);
#516=FILL_AREA_STYLE_COLOUR('',#10);
#517=FILL_AREA_STYLE('',(#516));
#518=SURFACE_STYLE_FILL_AREA(#517);
#519=SURFACE_SIDE_STYLE('',(#518));
#520=SURFACE_STYLE_USAGE(.BOTH.,#519);
#521=PRESENTATION_STYLE_ASSIGNMENT((#520));
#522=STYLED_ITEM('',(#521),#515);
#523=CARTESIAN_POINT('',(0.E0,-4.595E1,2.92E2));
#524=DIRECTION('',(0.E0,-1.E0,0.E0));
#525=DIRECTION('',(-1.E0,0.E0,0.E0));
#526=AXIS2_PLACEMENT_3D('',#523,#524,#525);
#527=CYLINDRICAL_SURFACE('',#526,9.25E0);
#528=ORIENTED_EDGE('',*,*,#506,.F.);
#530=ORIENTED_EDGE('',*,*,#529,.T.);
#531=ORIENTED_EDGE('',*,*,#509,.T.);
#532=ORIENTED_EDGE('',*,*,#489,.F.);
#533=EDGE_LOOP('',(#528,#530,#531,#532));
#534=FACE_OUTER_BOUND('',#533,.F.);
#535=ADVANCED_FACE('',(#534),#527,.T.);
#536=FILL_AREA_STYLE_COLOUR('',#10);
#537=FILL_AREA_STYLE('',(#536));
#538=SURFACE_STYLE_FILL_AREA(#537);
#539=SURFACE_SIDE_STYLE('',(#538));
#540=SURFACE_STYLE_USAGE(.BOTH.,#539);
#541=PRESENTATION_STYLE_ASSIGNMENT((#540));
#542=STYLED_ITEM('',(#541),#535);
#543=CARTESIAN_POINT('',(0.E0,-6.E1,2.92E2));
#544=DIRECTION('',(0.E0,-1.E0,0.E0));
#545=DIRECTION('',(-1.E0,0.E0,0.E0));
#546=AXIS2_PLACEMENT_3D('',#543,#544,#545);
#547=PLANE('',#546);
#549=ORIENTED_EDGE('',*,*,#548,.F.);
#551=ORIENTED_EDGE('',*,*,#550,.T.);
#552=EDGE_LOOP('',(#549,#551));
#553=FACE_OUTER_BOUND('',#552,.F.);
#554=ORIENTED_EDGE('',*,*,#529,.F.);
#555=ORIENTED_EDGE('',*,*,#511,.T.);
#556=EDGE_LOOP('',(#554,#555));
#557=FACE_BOUND('',#556,.F.);
#558=ADVANCED_FACE('',(#553,#557),#547,.F.);
#559=FILL_AREA_STYLE_COLOUR('',#10);
#560=FILL_AREA_STYLE('',(#559));
#561=SURFACE_STYLE_FILL_AREA(#560);
#562=SURFACE_SIDE_STYLE('',(#561));
#563=SURFACE_STYLE_USAGE(.BOTH.,#562);
#564=PRESENTATION_STYLE_ASSIGNMENT((#563));
#565=STYLED_ITEM('',(#564),#558);
#566=CARTESIAN_POINT('',(0.E0,-4.595E1,2.92E2));
#567=DIRECTION('',(0.E0,-1.E0,0.E0));
#568=DIRECTION('',(-1.E0,0.E0,0.E0));
#569=AXIS2_PLACEMENT_3D('',#566,#567,#568);
#570=CYLINDRICAL_SURFACE('',#569,1.05E1);
#572=ORIENTED_EDGE('',*,*,#571,.F.);
#574=ORIENTED_EDGE('',*,*,#573,.T.);
#575=ORIENTED_EDGE('',*,*,#548,.T.);
#577=ORIENTED_EDGE('',*,*,#576,.F.);
#578=EDGE_LOOP('',(#572,#574,#575,#577));
#579=FACE_OUTER_BOUND('',#578,.F.);
#580=ADVANCED_FACE('',(#579),#570,.T.);
#581=FILL_AREA_STYLE_COLOUR('',#10);
#582=FILL_AREA_STYLE('',(#581));
#583=SURFACE_STYLE_FILL_AREA(#582);
#584=SURFACE_SIDE_STYLE('',(#583));
#585=SURFACE_STYLE_USAGE(.BOTH.,#584);
#586=PRESENTATION_STYLE_ASSIGNMENT((#585));
#587=STYLED_ITEM('',(#586),#580);
#588=CARTESIAN_POINT('',(0.E0,-6.771132486541E1,2.92E2));
#589=DIRECTION('',(0.E0,1.E0,0.E0));
#590=DIRECTION('',(0.E0,0.E0,-1.E0));
#591=AXIS2_PLACEMENT_3D('',#588,#589,#590);
#592=CONICAL_SURFACE('',#591,9.999999999985E0,6.E1);
#593=ORIENTED_EDGE('',*,*,#571,.T.);
#595=ORIENTED_EDGE('',*,*,#594,.T.);
#597=ORIENTED_EDGE('',*,*,#596,.F.);
#599=ORIENTED_EDGE('',*,*,#598,.F.);
#600=EDGE_LOOP('',(#593,#595,#597,#599));
#601=FACE_OUTER_BOUND('',#600,.F.);
#602=ADVANCED_FACE('',(#601),#592,.T.);
#603=FILL_AREA_STYLE_COLOUR('',#10);
#604=FILL_AREA_STYLE('',(#603));
#605=SURFACE_STYLE_FILL_AREA(#604);
#606=SURFACE_SIDE_STYLE('',(#605));
#607=SURFACE_STYLE_USAGE(.BOTH.,#606);
#608=PRESENTATION_STYLE_ASSIGNMENT((#607));
#609=STYLED_ITEM('',(#608),#602);
#610=CARTESIAN_POINT('',(0.E0,-6.771132486541E1,2.92E2));
#611=DIRECTION('',(0.E0,1.E0,0.E0));
#612=DIRECTION('',(0.E0,0.E0,-1.E0));
#613=AXIS2_PLACEMENT_3D('',#610,#611,#612);
#614=CONICAL_SURFACE('',#613,9.999999999985E0,6.E1);
#616=ORIENTED_EDGE('',*,*,#615,.T.);
#617=ORIENTED_EDGE('',*,*,#598,.T.);
#619=ORIENTED_EDGE('',*,*,#618,.F.);
#620=ORIENTED_EDGE('',*,*,#594,.F.);
#621=EDGE_LOOP('',(#616,#617,#619,#620));
#622=FACE_OUTER_BOUND('',#621,.F.);
#623=ADVANCED_FACE('',(#622),#614,.T.);
#624=FILL_AREA_STYLE_COLOUR('',#10);
#625=FILL_AREA_STYLE('',(#624));
#626=SURFACE_STYLE_FILL_AREA(#625);
#627=SURFACE_SIDE_STYLE('',(#626));
#628=SURFACE_STYLE_USAGE(.BOTH.,#627);
#629=PRESENTATION_STYLE_ASSIGNMENT((#628));
#630=STYLED_ITEM('',(#629),#623);
#631=CARTESIAN_POINT('',(0.E0,-4.595E1,2.92E2));
#632=DIRECTION('',(0.E0,-1.E0,0.E0));
#633=DIRECTION('',(-1.E0,0.E0,0.E0));
#634=AXIS2_PLACEMENT_3D('',#631,#632,#633);
#635=CYLINDRICAL_SURFACE('',#634,1.05E1);
#636=ORIENTED_EDGE('',*,*,#615,.F.);
#637=ORIENTED_EDGE('',*,*,#576,.T.);
#638=ORIENTED_EDGE('',*,*,#550,.F.);
#639=ORIENTED_EDGE('',*,*,#573,.F.);
#640=EDGE_LOOP('',(#636,#637,#638,#639));
#641=FACE_OUTER_BOUND('',#640,.F.);
#642=ADVANCED_FACE('',(#641),#635,.T.);
#643=FILL_AREA_STYLE_COLOUR('',#10);
#644=FILL_AREA_STYLE('',(#643));
#645=SURFACE_STYLE_FILL_AREA(#644);
#646=SURFACE_SIDE_STYLE('',(#645));
#647=SURFACE_STYLE_USAGE(.BOTH.,#646);
#648=PRESENTATION_STYLE_ASSIGNMENT((#647));
#649=STYLED_ITEM('',(#648),#642);
#650=CARTESIAN_POINT('',(0.E0,-6.8E1,2.92E2));
#651=DIRECTION('',(0.E0,-1.E0,0.E0));
#652=DIRECTION('',(-1.E0,0.E0,0.E0));
#653=AXIS2_PLACEMENT_3D('',#650,#651,#652);
#654=PLANE('',#653);
#655=ORIENTED_EDGE('',*,*,#596,.T.);
#656=ORIENTED_EDGE('',*,*,#618,.T.);
#657=EDGE_LOOP('',(#655,#656));
#658=FACE_OUTER_BOUND('',#657,.F.);
#659=ADVANCED_FACE('',(#658),#654,.T.);
#660=FILL_AREA_STYLE_COLOUR('',#10);
#661=FILL_AREA_STYLE('',(#660));
#662=SURFACE_STYLE_FILL_AREA(#661);
#663=SURFACE_SIDE_STYLE('',(#662));
#664=SURFACE_STYLE_USAGE(.BOTH.,#663);
#665=PRESENTATION_STYLE_ASSIGNMENT((#664));
#666=STYLED_ITEM('',(#665),#659);
#667=CLOSED_SHELL('',(#271,#293,#317,#339,#359,#376,#396,#416,#446,#470,#493,
#515,#535,#558,#580,#602,#623,#642,#659));
#668=MANIFOLD_SOLID_BREP('',#667);
#670=DIMENSIONAL_EXPONENTS(0.E0,0.E0,0.E0,0.E0,0.E0,0.E0,0.E0);
#672=PLANE_ANGLE_MEASURE_WITH_UNIT(PLANE_ANGLE_MEASURE(1.745329251994E-2),#671);
#673=(CONVERSION_BASED_UNIT('DEGREE',#672)NAMED_UNIT(*)PLANE_ANGLE_UNIT());
#675=UNCERTAINTY_MEASURE_WITH_UNIT(LENGTH_MEASURE(3.336638428341E-3),#669,
'closure',
'Maximum model space distance between geometric entities at asserted connectivities');
#676=(GEOMETRIC_REPRESENTATION_CONTEXT(3)GLOBAL_UNCERTAINTY_ASSIGNED_CONTEXT((
#675))GLOBAL_UNIT_ASSIGNED_CONTEXT((#669,#673,#674))REPRESENTATION_CONTEXT
('ID1','3'));
#678=MECHANICAL_DESIGN_GEOMETRIC_PRESENTATION_REPRESENTATION('',(#278,#300,#324,
#346,#366,#383,#403,#423,#453,#477,#500,#522,#542,#565,#587,#609,#630,#649,
#666),#676);
#679=APPLICATION_CONTEXT(
'CONFIGURATION CONTROLLED 3D DESIGNS OF MECHANICAL PARTS AND ASSEMBLIES');
#680=APPLICATION_PROTOCOL_DEFINITION('international standard',
'config_control_design',1994,#679);
#681=DESIGN_CONTEXT('',#679,'design');
#682=MECHANICAL_CONTEXT('',#679,'mechanical');
#683=PRODUCT('ZSOF035CR','ZSOF035CR','NOT SPECIFIED',(#682));
#684=PRODUCT_DEFINITION_FORMATION_WITH_SPECIFIED_SOURCE('1','LAST_VERSION',#683,
.MADE.);
#688=PRODUCT_CATEGORY('part','');
#689=PRODUCT_RELATED_PRODUCT_CATEGORY('detail','',(#683));
#690=PRODUCT_CATEGORY_RELATIONSHIP('','',#688,#689);
#691=SECURITY_CLASSIFICATION_LEVEL('unclassified');
#692=SECURITY_CLASSIFICATION('','',#691);
#693=CC_DESIGN_SECURITY_CLASSIFICATION(#692,(#684));
#694=APPROVAL_STATUS('approved');
#695=APPROVAL(#694,'');
#696=CC_DESIGN_APPROVAL(#695,(#692,#684,#685));
#697=CALENDAR_DATE(121,20,1);
#698=COORDINATED_UNIVERSAL_TIME_OFFSET(1,0,.AHEAD.);
#699=LOCAL_TIME(11,32,1.6E1,#698);
#700=DATE_AND_TIME(#697,#699);
#701=APPROVAL_DATE_TIME(#700,#695);
#702=DATE_TIME_ROLE('creation_date');
#703=CC_DESIGN_DATE_AND_TIME_ASSIGNMENT(#700,#702,(#685));
#704=DATE_TIME_ROLE('classification_date');
#705=CC_DESIGN_DATE_AND_TIME_ASSIGNMENT(#700,#704,(#692));
#706=PERSON('UNSPECIFIED','UNSPECIFIED',$,$,$,$);
#707=ORGANIZATION('UNSPECIFIED','UNSPECIFIED','UNSPECIFIED');
#708=PERSON_AND_ORGANIZATION(#706,#707);
#709=APPROVAL_ROLE('approver');
#710=APPROVAL_PERSON_ORGANIZATION(#708,#695,#709);
#711=PERSON_AND_ORGANIZATION_ROLE('creator');
#712=CC_DESIGN_PERSON_AND_ORGANIZATION_ASSIGNMENT(#708,#711,(#684,#685));
#713=PERSON_AND_ORGANIZATION_ROLE('design_supplier');
#714=CC_DESIGN_PERSON_AND_ORGANIZATION_ASSIGNMENT(#708,#713,(#684));
#715=PERSON_AND_ORGANIZATION_ROLE('classification_officer');
#716=CC_DESIGN_PERSON_AND_ORGANIZATION_ASSIGNMENT(#708,#715,(#692));
#717=PERSON_AND_ORGANIZATION_ROLE('design_owner');
#718=CC_DESIGN_PERSON_AND_ORGANIZATION_ASSIGNMENT(#708,#717,(#683));
#1=COLOUR_RGB('',0.E0,5.1E-1,1.E0);
#2=COLOUR_RGB('',0.E0,7.84E-1,1.E0);
#3=DRAUGHTING_PRE_DEFINED_COLOUR('green');
#4=COLOUR_RGB('',3.9E-2,3.9E-2,1.E0);
#5=COLOUR_RGB('',1.96E-1,1.96E-1,1.96E-1);
#6=COLOUR_RGB('',4.31E-1,7.84E-1,1.E0);
#7=COLOUR_RGB('',5.76E-1,8.04E-1,8.67E-1);
#8=COLOUR_RGB('',6.35294E-1,6.86275E-1,7.4902E-1);
#9=COLOUR_RGB('',6.67E-1,6.67E-1,6.67E-1);
#10=COLOUR_RGB('',6.66667E-1,6.66667E-1,6.66667E-1);
#11=COLOUR_RGB('',6.66667E-1,6.66667E-1,6.66667E-1);
#12=DRAUGHTING_PRE_DEFINED_COLOUR('red');
#13=DRAUGHTING_PRE_DEFINED_COLOUR('magenta');
#14=COLOUR_RGB('',1.E0,3.14E-1,5.88E-1);
#15=COLOUR_RGB('',1.E0,5.88E-1,0.E0);
#16=COLOUR_RGB('',1.E0,9.01961E-1,3.92157E-1);
#17=DRAUGHTING_PRE_DEFINED_COLOUR('white');
#22=CIRCLE('',#21,1.2E1);
#27=CIRCLE('',#26,2.75E1);
#32=CIRCLE('',#31,1.2E1);
#41=CIRCLE('',#40,3.E1);
#46=CIRCLE('',#45,3.E1);
#59=CIRCLE('',#58,3.E1);
#64=CIRCLE('',#63,3.E1);
#69=CIRCLE('',#68,1.2E1);
#78=CIRCLE('',#77,1.2E1);
#83=CIRCLE('',#82,5.15E1);
#88=CIRCLE('',#87,1.2E1);
#97=CIRCLE('',#96,1.2E1);
#106=CIRCLE('',#105,1.2E1);
#115=CIRCLE('',#114,1.2E1);
#120=CIRCLE('',#119,1.2E1);
#125=CIRCLE('',#124,1.2E1);
#134=CIRCLE('',#133,9.25E0);
#139=CIRCLE('',#138,9.25E0);
#152=CIRCLE('',#151,9.25E0);
#157=CIRCLE('',#156,9.25E0);
#162=CIRCLE('',#161,1.05E1);
#167=CIRCLE('',#166,1.05E1);
#172=CIRCLE('',#171,1.05E1);
#193=CIRCLE('',#192,1.05E1);
#198=CIRCLE('',#197,9.5E0);
#203=CIRCLE('',#202,9.5E0);
#261=EDGE_CURVE('',#206,#207,#22,.T.);
#263=EDGE_CURVE('',#206,#210,#27,.T.);
#265=EDGE_CURVE('',#210,#211,#125,.T.);
#267=EDGE_CURVE('',#207,#211,#83,.T.);
#284=EDGE_CURVE('',#254,#255,#32,.T.);
#286=EDGE_CURVE('',#254,#206,#36,.T.);
#289=EDGE_CURVE('',#255,#207,#73,.T.);
#306=EDGE_CURVE('',#247,#251,#41,.T.);
#308=EDGE_CURVE('',#247,#251,#46,.T.);
#313=EDGE_CURVE('',#255,#254,#69,.T.);
#330=EDGE_CURVE('',#246,#247,#50,.T.);
#333=EDGE_CURVE('',#250,#251,#54,.T.);
#335=EDGE_CURVE('',#246,#250,#59,.T.);
#353=EDGE_CURVE('',#246,#250,#64,.T.);
#391=EDGE_CURVE('',#207,#206,#78,.T.);
#411=EDGE_CURVE('',#211,#210,#106,.T.);
#429=EDGE_CURVE('',#238,#239,#88,.T.);
#431=EDGE_CURVE('',#227,#239,#92,.T.);
#433=EDGE_CURVE('',#226,#227,#97,.T.);
#435=EDGE_CURVE('',#226,#243,#101,.T.);
#437=EDGE_CURVE('',#242,#243,#115,.T.);
#439=EDGE_CURVE('',#210,#242,#129,.T.);
#442=EDGE_CURVE('',#211,#238,#110,.T.);
#461=EDGE_CURVE('',#226,#227,#120,.T.);
#487=EDGE_CURVE('',#215,#219,#134,.T.);
#489=EDGE_CURVE('',#215,#219,#139,.T.);
#506=EDGE_CURVE('',#214,#215,#143,.T.);
#509=EDGE_CURVE('',#218,#219,#147,.T.);
#511=EDGE_CURVE('',#214,#218,#152,.T.);
#529=EDGE_CURVE('',#214,#218,#157,.T.);
#548=EDGE_CURVE('',#222,#223,#162,.T.);
#550=EDGE_CURVE('',#222,#223,#167,.T.);
#571=EDGE_CURVE('',#230,#231,#172,.T.);
#573=EDGE_CURVE('',#230,#222,#176,.T.);
#576=EDGE_CURVE('',#231,#223,#180,.T.);
#594=EDGE_CURVE('',#231,#235,#188,.T.);
#596=EDGE_CURVE('',#234,#235,#198,.T.);
#598=EDGE_CURVE('',#230,#234,#184,.T.);
#615=EDGE_CURVE('',#231,#230,#193,.T.);
#618=EDGE_CURVE('',#235,#234,#203,.T.);
#669=(LENGTH_UNIT()NAMED_UNIT(*)SI_UNIT(.MILLI.,.METRE.));
#671=(NAMED_UNIT(*)PLANE_ANGLE_UNIT()SI_UNIT($,.RADIAN.));
#674=(NAMED_UNIT(*)SI_UNIT($,.STERADIAN.)SOLID_ANGLE_UNIT());
#677=ADVANCED_BREP_SHAPE_REPRESENTATION('',(#668),#676);
#685=PRODUCT_DEFINITION('design','',#684,#681);
#686=PRODUCT_DEFINITION_SHAPE('','SHAPE FOR ZSOF035CR.',#685);
#687=SHAPE_DEFINITION_REPRESENTATION(#686,#677);
ENDSEC;
END-ISO-10303-21;
